ISO-10303-21;
HEADER;
FILE_DESCRIPTION (( 'STEP AP203' ),
    '1' );
FILE_NAME ('Q-QZWP-R4-25.4-405-M.STEP',
    '2020-12-23T01:27:41',
    ( '' ),
    ( '' ),
    'SwSTEP 2.0',
    'SolidWorks 2020',
    '' );
FILE_SCHEMA (( 'CONFIG_CONTROL_DESIGN' ));
ENDSEC;

DATA;
#1 = COORDINATED_UNIVERSAL_TIME_OFFSET ( 8, 0, .AHEAD. ) ;
#2 = APPROVAL_DATE_TIME ( #79, #148 ) ;
#3 = APPROVAL_STATUS ( 'not_yet_approved' ) ;
#4 = LOCAL_TIME ( 9, 27, 41.00000000000000000, #74 ) ;
#5 = PERSON_AND_ORGANIZATION_ROLE ( 'design_supplier' ) ;
#6 = CC_DESIGN_DATE_AND_TIME_ASSIGNMENT ( #30, #58, ( #51 ) ) ;
#7 = AXIS2_PLACEMENT_3D ( 'NONE', #13, #71, #150 ) ;
#8 = DESIGN_CONTEXT ( 'detailed design', #97, 'design' ) ;
#9 = DIRECTION ( 'NONE',  ( -1.000000000000000000, -0.000000000000000000, -0.000000000000000000 ) ) ;
#10 = VERTEX_POINT ( 'NONE', #129 ) ;
#11 = DIRECTION ( 'NONE',  ( 0.000000000000000000, 0.000000000000000000, 1.000000000000000000 ) ) ;
#12 = PRODUCT_DEFINITION ( 'UNKNOWN', '', #62, #8 ) ;
#13 = CARTESIAN_POINT ( 'NONE',  ( -3.000000000000000000, 0.000000000000000000, 0.000000000000000000 ) ) ;
#14 = CARTESIAN_POINT ( 'NONE',  ( -1.614212418857619014, 1.836970198721029589E-15, -15.00000000000000000 ) ) ;
#15 = DATE_AND_TIME ( #112, #4 ) ;
#16 = APPROVAL_PERSON_ORGANIZATION ( #123, #171, #80 ) ;
#17 = VECTOR ( 'NONE', #23, 1000.000000000000000 ) ;
#18 = COORDINATED_UNIVERSAL_TIME_OFFSET ( 8, 0, .AHEAD. ) ;
#19 = CC_DESIGN_PERSON_AND_ORGANIZATION_ASSIGNMENT ( #144, #146, ( #62 ) ) ;
#20 = EDGE_CURVE ( 'NONE', #10, #101, #53, .T. ) ;
#21 = CLOSED_SHELL ( 'NONE', ( #161, #147, #66, #116 ) ) ;
#22 = EDGE_CURVE ( 'NONE', #143, #10, #167, .T. ) ;
#23 = DIRECTION ( 'NONE',  ( -1.000000000000000000, -0.000000000000000000, -0.000000000000000000 ) ) ;
#24 = DIRECTION ( 'NONE',  ( -1.000000000000000000, -0.000000000000000000, -0.000000000000000000 ) ) ;
#25 = DIRECTION ( 'NONE',  ( 0.000000000000000000, 0.000000000000000000, 1.000000000000000000 ) ) ;
#26 = DIRECTION ( 'NONE',  ( 0.000000000000000000, 0.000000000000000000, 1.000000000000000000 ) ) ;
#27 = EDGE_CURVE ( 'NONE', #160, #101, #68, .T. ) ;
#28 = DATE_TIME_ROLE ( 'creation_date' ) ;
#29 = PRODUCT_RELATED_PRODUCT_CATEGORY ( 'detail', '', ( #52 ) ) ;
#30 = DATE_AND_TIME ( #109, #173 ) ;
#31 = AXIS2_PLACEMENT_3D ( 'NONE', #82, #99, #132 ) ;
#32 = SECURITY_CLASSIFICATION_LEVEL ( 'unclassified' ) ;
#33 = CALENDAR_DATE ( 2020, 23, 12 ) ;
#34 = AXIS2_PLACEMENT_3D ( 'NONE', #69, #55, #105 ) ;
#35 = CC_DESIGN_PERSON_AND_ORGANIZATION_ASSIGNMENT ( #81, #5, ( #62 ) ) ;
#36 = CYLINDRICAL_SURFACE ( 'NONE', #137, 15.00000000000000000 ) ;
#37 = CIRCLE ( 'NONE', #163, 15.00000000000000000 ) ;
#38 = DIRECTION ( 'NONE',  ( -1.000000000000000000, -0.000000000000000000, -0.000000000000000000 ) ) ;
#39 = CARTESIAN_POINT ( 'NONE',  ( 3.000000000000000000, 0.000000000000000000, 0.000000000000000000 ) ) ;
#40 = ORIENTED_EDGE ( 'NONE', *, *, #22, .F. ) ;
#41 = LINE ( 'NONE', #139, #17 ) ;
#42 = VECTOR ( 'NONE', #119, 1000.000000000000000 ) ;
#43 = PERSON_AND_ORGANIZATION ( #118, #155 ) ;
#44 = MECHANICAL_CONTEXT ( 'NONE', #54, 'mechanical' ) ;
#45 = ORIENTED_EDGE ( 'NONE', *, *, #169, .T. ) ;
#46 = PERSON_AND_ORGANIZATION ( #118, #155 ) ;
#47 = CC_DESIGN_APPROVAL ( #148, ( #51 ) ) ;
#48 = LOCAL_TIME ( 9, 27, 41.00000000000000000, #113 ) ;
#49 = EDGE_LOOP ( 'NONE', ( #40, #67 ) ) ;
#50 = FACE_OUTER_BOUND ( 'NONE', #138, .T. ) ;
#51 = SECURITY_CLASSIFICATION ( '', '', #32 ) ;
#52 = PRODUCT ( 'Q-QZWP-R4-25.4-405-M', 'Q-QZWP-R4-25.4-405-M', '', ( #44 ) ) ;
#53 = LINE ( 'NONE', #14, #42 ) ;
#54 = APPLICATION_CONTEXT ( 'configuration controlled 3d designs of mechanical parts and assemblies' ) ;
#55 = DIRECTION ( 'NONE',  ( -1.000000000000000000, 0.000000000000000000, -0.000000000000000000 ) ) ;
#56 = PERSON_AND_ORGANIZATION ( #118, #155 ) ;
#57 = AXIS2_PLACEMENT_3D ( 'NONE', #77, #24, #25 ) ;
#58 = DATE_TIME_ROLE ( 'classification_date' ) ;
#59 = EDGE_LOOP ( 'NONE', ( #158, #45 ) ) ;
#60 = SHAPE_DEFINITION_REPRESENTATION ( #156, #98 ) ;
#61 = DATE_AND_TIME ( #33, #72 ) ;
#62 = PRODUCT_DEFINITION_FORMATION_WITH_SPECIFIED_SOURCE ( 'ANY', '', #52, .NOT_KNOWN. ) ;
#63 = CIRCLE ( 'NONE', #57, 15.00000000000000000 ) ;
#64 = APPROVAL_STATUS ( 'not_yet_approved' ) ;
#65 = DIRECTION ( 'NONE',  ( 0.000000000000000000, 0.000000000000000000, -1.000000000000000000 ) ) ;
#66 = ADVANCED_FACE ( 'NONE', ( #88 ), #36, .T. ) ;
#67 = ORIENTED_EDGE ( 'NONE', *, *, #133, .F. ) ;
#68 = CIRCLE ( 'NONE', #7, 15.00000000000000000 ) ;
#69 = CARTESIAN_POINT ( 'NONE',  ( 3.000000000000000888, 12.69999999999999929, 0.000000000000000000 ) ) ;
#70 = ORIENTED_EDGE ( 'NONE', *, *, #27, .F. ) ;
#71 = DIRECTION ( 'NONE',  ( -1.000000000000000000, -0.000000000000000000, -0.000000000000000000 ) ) ;
#72 = LOCAL_TIME ( 9, 27, 41.00000000000000000, #18 ) ;
#73 = PERSON_AND_ORGANIZATION_ROLE ( 'design_owner' ) ;
#74 = COORDINATED_UNIVERSAL_TIME_OFFSET ( 8, 0, .AHEAD. ) ;
#75 = APPROVAL_DATE_TIME ( #15, #171 ) ;
#76 = CC_DESIGN_PERSON_AND_ORGANIZATION_ASSIGNMENT ( #46, #73, ( #52 ) ) ;
#77 = CARTESIAN_POINT ( 'NONE',  ( -3.000000000000000000, 0.000000000000000000, 0.000000000000000000 ) ) ;
#78 = EDGE_LOOP ( 'NONE', ( #86, #168, #111, #94 ) ) ;
#79 = DATE_AND_TIME ( #93, #48 ) ;
#80 = APPROVAL_ROLE ( '' ) ;
#81 = PERSON_AND_ORGANIZATION ( #118, #155 ) ;
#82 = CARTESIAN_POINT ( 'NONE',  ( 0.000000000000000000, 0.000000000000000000, 0.000000000000000000 ) ) ;
#83 = PERSON_AND_ORGANIZATION ( #118, #155 ) ;
#84 = APPROVAL_PERSON_ORGANIZATION ( #56, #149, #131 ) ;
#85 = CC_DESIGN_SECURITY_CLASSIFICATION ( #51, ( #62 ) ) ;
#86 = ORIENTED_EDGE ( 'NONE', *, *, #20, .F. ) ;
#87 = CARTESIAN_POINT ( 'NONE',  ( -3.000000000000000000, 1.836970198721029589E-15, -15.00000000000000000 ) ) ;
#88 = FACE_OUTER_BOUND ( 'NONE', #78, .T. ) ;
#89 = CYLINDRICAL_SURFACE ( 'NONE', #124, 15.00000000000000000 ) ;
#90 = FACE_OUTER_BOUND ( 'NONE', #59, .T. ) ;
#91 = CC_DESIGN_PERSON_AND_ORGANIZATION_ASSIGNMENT ( #83, #162, ( #12 ) ) ;
#92 =( NAMED_UNIT ( * ) SI_UNIT ( $, .STERADIAN. ) SOLID_ANGLE_UNIT ( ) );
#93 = CALENDAR_DATE ( 2020, 23, 12 ) ;
#94 = ORIENTED_EDGE ( 'NONE', *, *, #169, .F. ) ;
#95 = APPROVAL_PERSON_ORGANIZATION ( #43, #148, #96 ) ;
#96 = APPROVAL_ROLE ( '' ) ;
#97 = APPLICATION_CONTEXT ( 'configuration controlled 3d designs of mechanical parts and assemblies' ) ;
#98 = ADVANCED_BREP_SHAPE_REPRESENTATION ( 'Q-QZWP-R4-25.4-405-M', ( #152, #31 ), #100 ) ;
#99 = DIRECTION ( 'NONE',  ( 0.000000000000000000, 0.000000000000000000, 1.000000000000000000 ) ) ;
#100 =( GEOMETRIC_REPRESENTATION_CONTEXT ( 3 ) GLOBAL_UNCERTAINTY_ASSIGNED_CONTEXT ( ( #110 ) ) GLOBAL_UNIT_ASSIGNED_CONTEXT ( ( #107, #175, #92 ) ) REPRESENTATION_CONTEXT ( 'NONE', 'WORKASPACE' ) );
#101 = VERTEX_POINT ( 'NONE', #87 ) ;
#102 = DIRECTION ( 'NONE',  ( -1.000000000000000000, -0.000000000000000000, -0.000000000000000000 ) ) ;
#103 = CARTESIAN_POINT ( 'NONE',  ( -1.614212418857619014, 0.000000000000000000, 0.000000000000000000 ) ) ;
#104 = CC_DESIGN_APPROVAL ( #149, ( #12 ) ) ;
#105 = DIRECTION ( 'NONE',  ( -0.000000000000000000, 0.000000000000000000, 1.000000000000000000 ) ) ;
#106 = EDGE_CURVE ( 'NONE', #143, #160, #41, .T. ) ;
#107 =( LENGTH_UNIT ( ) NAMED_UNIT ( * ) SI_UNIT ( .MILLI., .METRE. ) );
#108 = CC_DESIGN_APPROVAL ( #171, ( #62 ) ) ;
#109 = CALENDAR_DATE ( 2020, 23, 12 ) ;
#110 = UNCERTAINTY_MEASURE_WITH_UNIT (LENGTH_MEASURE( 1.000000000000000082E-05 ), #107, 'distance_accuracy_value', 'NONE');
#111 = ORIENTED_EDGE ( 'NONE', *, *, #106, .T. ) ;
#112 = CALENDAR_DATE ( 2020, 23, 12 ) ;
#113 = COORDINATED_UNIVERSAL_TIME_OFFSET ( 8, 0, .AHEAD. ) ;
#114 = CC_DESIGN_PERSON_AND_ORGANIZATION_ASSIGNMENT ( #165, #130, ( #51 ) ) ;
#115 = CARTESIAN_POINT ( 'NONE',  ( 3.000000000000000000, 0.000000000000000000, 15.00000000000000000 ) ) ;
#116 = ADVANCED_FACE ( 'NONE', ( #90 ), #125, .F. ) ;
#117 = DIRECTION ( 'NONE',  ( -1.000000000000000000, -0.000000000000000000, -0.000000000000000000 ) ) ;
#118 = PERSON ( 'UNSPECIFIED', 'UNSPECIFIED', 'UNSPECIFIED', ('UNSPECIFIED'), ('UNSPECIFIED'), ('UNSPECIFIED') ) ;
#119 = DIRECTION ( 'NONE',  ( -1.000000000000000000, -0.000000000000000000, -0.000000000000000000 ) ) ;
#120 = DATE_AND_TIME ( #135, #166 ) ;
#121 = APPROVAL_DATE_TIME ( #61, #149 ) ;
#122 = APPLICATION_PROTOCOL_DEFINITION ( 'international standard', 'config_control_design', 1994, #97 ) ;
#123 = PERSON_AND_ORGANIZATION ( #118, #155 ) ;
#124 = AXIS2_PLACEMENT_3D ( 'NONE', #103, #38, #140 ) ;
#125 = PLANE ( 'NONE',  #136 ) ;
#126 = CARTESIAN_POINT ( 'NONE',  ( -3.000000000000000888, 12.69999999999999929, 0.000000000000000000 ) ) ;
#127 = FACE_OUTER_BOUND ( 'NONE', #49, .T. ) ;
#128 = CARTESIAN_POINT ( 'NONE',  ( -1.614212418857619014, 0.000000000000000000, 0.000000000000000000 ) ) ;
#129 = CARTESIAN_POINT ( 'NONE',  ( 3.000000000000000000, 1.836970198721029589E-15, -15.00000000000000000 ) ) ;
#130 = PERSON_AND_ORGANIZATION_ROLE ( 'classification_officer' ) ;
#131 = APPROVAL_ROLE ( '' ) ;
#132 = DIRECTION ( 'NONE',  ( 1.000000000000000000, 0.000000000000000000, 0.000000000000000000 ) ) ;
#133 = EDGE_CURVE ( 'NONE', #10, #143, #37, .T. ) ;
#134 = COORDINATED_UNIVERSAL_TIME_OFFSET ( 8, 0, .AHEAD. ) ;
#135 = CALENDAR_DATE ( 2020, 23, 12 ) ;
#136 = AXIS2_PLACEMENT_3D ( 'NONE', #126, #141, #65 ) ;
#137 = AXIS2_PLACEMENT_3D ( 'NONE', #128, #117, #153 ) ;
#138 = EDGE_LOOP ( 'NONE', ( #145, #174, #70, #151 ) ) ;
#139 = CARTESIAN_POINT ( 'NONE',  ( -1.614212418857619014, 0.000000000000000000, 15.00000000000000000 ) ) ;
#140 = DIRECTION ( 'NONE',  ( 0.000000000000000000, 0.000000000000000000, 1.000000000000000000 ) ) ;
#141 = DIRECTION ( 'NONE',  ( 1.000000000000000000, 0.000000000000000000, 0.000000000000000000 ) ) ;
#142 = AXIS2_PLACEMENT_3D ( 'NONE', #172, #102, #26 ) ;
#143 = VERTEX_POINT ( 'NONE', #115 ) ;
#144 = PERSON_AND_ORGANIZATION ( #118, #155 ) ;
#145 = ORIENTED_EDGE ( 'NONE', *, *, #22, .T. ) ;
#146 = PERSON_AND_ORGANIZATION_ROLE ( 'creator' ) ;
#147 = ADVANCED_FACE ( 'NONE', ( #127 ), #154, .F. ) ;
#148 = APPROVAL ( #64, 'UNSPECIFIED' ) ;
#149 = APPROVAL ( #157, 'UNSPECIFIED' ) ;
#150 = DIRECTION ( 'NONE',  ( 0.000000000000000000, 0.000000000000000000, 1.000000000000000000 ) ) ;
#151 = ORIENTED_EDGE ( 'NONE', *, *, #106, .F. ) ;
#152 = MANIFOLD_SOLID_BREP ( 'Ðý×', #21 ) ;
#153 = DIRECTION ( 'NONE',  ( 0.000000000000000000, 0.000000000000000000, 1.000000000000000000 ) ) ;
#154 = PLANE ( 'NONE',  #34 ) ;
#155 = ORGANIZATION ( 'UNSPECIFIED', 'UNSPECIFIED', '' ) ;
#156 = PRODUCT_DEFINITION_SHAPE ( 'NONE', 'NONE',  #12 ) ;
#157 = APPROVAL_STATUS ( 'not_yet_approved' ) ;
#158 = ORIENTED_EDGE ( 'NONE', *, *, #27, .T. ) ;
#159 = APPLICATION_PROTOCOL_DEFINITION ( 'international standard', 'config_control_design', 1994, #54 ) ;
#160 = VERTEX_POINT ( 'NONE', #170 ) ;
#161 = ADVANCED_FACE ( 'NONE', ( #50 ), #89, .T. ) ;
#162 = PERSON_AND_ORGANIZATION_ROLE ( 'creator' ) ;
#163 = AXIS2_PLACEMENT_3D ( 'NONE', #39, #9, #11 ) ;
#164 = CC_DESIGN_DATE_AND_TIME_ASSIGNMENT ( #120, #28, ( #12 ) ) ;
#165 = PERSON_AND_ORGANIZATION ( #118, #155 ) ;
#166 = LOCAL_TIME ( 9, 27, 41.00000000000000000, #134 ) ;
#167 = CIRCLE ( 'NONE', #142, 15.00000000000000000 ) ;
#168 = ORIENTED_EDGE ( 'NONE', *, *, #133, .T. ) ;
#169 = EDGE_CURVE ( 'NONE', #101, #160, #63, .T. ) ;
#170 = CARTESIAN_POINT ( 'NONE',  ( -3.000000000000000000, 0.000000000000000000, 15.00000000000000000 ) ) ;
#171 = APPROVAL ( #3, 'UNSPECIFIED' ) ;
#172 = CARTESIAN_POINT ( 'NONE',  ( 3.000000000000000000, 0.000000000000000000, 0.000000000000000000 ) ) ;
#173 = LOCAL_TIME ( 9, 27, 41.00000000000000000, #1 ) ;
#174 = ORIENTED_EDGE ( 'NONE', *, *, #20, .T. ) ;
#175 =( NAMED_UNIT ( * ) PLANE_ANGLE_UNIT ( ) SI_UNIT ( $, .RADIAN. ) );
ENDSEC;
END-ISO-10303-21;
